  0
SECTION
  2
HEADER
  9
$ACADVER
  1
AC1009
  9
$FILLMODE
 70
1
  9
$EXTMIN
 10
-41.8800
 20
-52.0000
 30
0.0000
  9
$EXTMAX
 10
170.0005
 20
109.5005
 30
0.0000
  0
ENDSEC
  0
SECTION
  2
TABLES
  0
TABLE
  2
LTYPE
 70
1
  0
LTYPE
  2
CONTINUOUS
 70
64
  3
Solid line
 72
65
 73
0
 40
0
  0
ENDTAB
  0
TABLE
  2
LAYER
 70
255
  0
LAYER
  2
20
 70
64
 62
7
  6
CONTINUOUS
  0
LAYER
  2
23
 70
64
 62
7
  6
CONTINUOUS
  0
ENDTAB
  0
ENDSEC
  0
SECTION
  2
BLOCKS
  0
BLOCK
  8
0
  2
RECT
 70
64
 10
0.0000
 20
0.0000
 30
0.0000
  3
RECT
  0
SOLID
  8
0
 10
-0.5000
 20
-0.5000
 30
0.0000
 11
0.5000
 21
-0.5000
 31
0.0000
 12
-0.5000
 22
0.5000
 32
0.0000
 13
0.5000
 23
0.5000
 33
0.0000
  0
ENDBLK
  8
0
  0
BLOCK
  8
0
  2
PIE
 70
64
 10
0.0000
 20
0.0000
 30
0.0000
  3
PIE
  0
POLYLINE
  8
0
 66
1
 10
0.0000
 20
0.0000
 30
0.0000
 40
0.5000
 41
0.5000
 70
0
  0
VERTEX
  8
0
 10
0.0000
 20
-0.2500
 30
0.0000
 42
1.0000
  0
VERTEX
  8
0
 10
0.0000
 20
0.2500
 30
0.0000
 42
1.0000
  0
VERTEX
  8
0
 10
0.0000
 20
-0.2500
 30
0.0000
  0
SEQEND
  8
0
  0
ENDBLK
  8
0
  0
BLOCK
  8
0
  2
OCTAGONP
 70
64
 10
0.0000
 20
0.0000
 30
0.0000
  3
OCTAGONP
  0
POLYLINE
  8
0
 66
1
 10
0.0000
 20
0.0000
 30
0.0000
 40
0.5000
 41
0.5000
 70
0
  0
VERTEX
  8
0
 10
-0.2500
 20
-0.1036
 30
0.0000
  0
VERTEX
  8
0
 10
-0.2500
 20
0.1036
 30
0.0000
  0
VERTEX
  8
0
 10
-0.1036
 20
0.2500
 30
0.0000
  0
VERTEX
  8
0
 10
0.1036
 20
0.2500
 30
0.0000
  0
VERTEX
  8
0
 10
0.2500
 20
0.1036
 30
0.0000
  0
VERTEX
  8
0
 10
0.2500
 20
-0.1036
 30
0.0000
  0
VERTEX
  8
0
 10
0.1036
 20
-0.2500
 30
0.0000
  0
VERTEX
  8
0
 10
-0.1036
 20
-0.2500
 30
0.0000
  0
VERTEX
  8
0
 10
-0.2500
 20
-0.1036
 30
0.0000
  0
VERTEX
  8
0
 10
-0.2500
 20
0.1036
 30
0.0000
  0
SEQEND
  8
0
  0
ENDBLK
  8
0
  0
BLOCK
  8
0
  2
SQUAREP
 70
64
 10
0.0000
 20
0.0000
 30
0.0000
  3
SQUAREP
  0
SOLID
  8
0
 10
-0.5000
 20
-0.5000
 30
0.0000
 11
0.5000
 21
-0.5000
 31
0.0000
 12
-0.5000
 22
0.5000
 32
0.0000
 13
0.5000
 23
0.5000
 33
0.0000
  0
ENDBLK
  8
0
  0
BLOCK
  8
0
  2
ROUNDP
 70
64
 10
0.0000
 20
0.0000
 30
0.0000
  3
ROUNDP
  0
POLYLINE
  8
0
 66
1
 10
0.0000
 20
0.0000
 30
0.0000
 40
0.5000
 41
0.5000
 70
0
  0
VERTEX
  8
0
 10
0.0000
 20
-0.2500
 30
0.0000
 42
1.0000
  0
VERTEX
  8
0
 10
0.0000
 20
0.2500
 30
0.0000
 42
1.0000
  0
VERTEX
  8
0
 10
0.0000
 20
-0.2500
 30
0.0000
  0
SEQEND
  8
0
  0
ENDBLK
  8
0
  0
BLOCK
  8
0
  2
ANNULUSP
 70
64
 10
0.0000
 20
0.0000
 30
0.0000
  3
ANNULUSP
  0
POLYLINE
  8
0
 66
1
 10
0.0000
 20
0.0000
 30
0.0000
 40
0.5000
 41
0.5000
 70
0
  0
VERTEX
  8
0
 10
0.0000
 20
-0.2500
 30
0.0000
 42
1.0000
  0
VERTEX
  8
0
 10
0.0000
 20
0.2500
 30
0.0000
 42
1.0000
  0
VERTEX
  8
0
 10
0.0000
 20
-0.2500
 30
0.0000
  0
SEQEND
  8
0
  0
ENDBLK
  8
0
  0
BLOCK
  8
0
  2
THERMALP
 70
64
 10
0.0000
 20
0.0000
 30
0.0000
  3
THERMALP
  0
POLYLINE
  8
0
 66
1
 10
0.0000
 20
0.0000
 30
0.0000
 40
0.1000
 41
0.1000
 70
0
  0
VERTEX
  8
0
 10
-0.2379
 20
0.4500
 30
0.0000
  0
VERTEX
  8
0
 10
0.2379
 20
0.4500
 30
0.0000
  0
SEQEND
  8
0
  0
POLYLINE
  8
0
 66
1
 10
0.0000
 20
0.0000
 30
0.0000
 40
0.0500
 41
0.0500
 70
0
  0
VERTEX
  8
0
 10
0.2379
 20
0.4250
 30
0.0000
 42
1.0000
  0
VERTEX
  8
0
 10
0.2379
 20
0.4750
 30
0.0000
  0
SEQEND
  8
0
  0
POLYLINE
  8
0
 66
1
 10
0.0000
 20
0.0000
 30
0.0000
 40
0.0500
 41
0.0500
 70
0
  0
VERTEX
  8
0
 10
-0.2379
 20
0.4750
 30
0.0000
 42
1.0000
  0
VERTEX
  8
0
 10
-0.2379
 20
0.4250
 30
0.0000
  0
SEQEND
  8
0
  0
POLYLINE
  8
0
 66
1
 10
0.0000
 20
0.0000
 30
0.0000
 40
0.1000
 41
0.1000
 70
0
  0
VERTEX
  8
0
 10
0.4500
 20
0.2379
 30
0.0000
  0
VERTEX
  8
0
 10
0.4500
 20
-0.2379
 30
0.0000
  0
SEQEND
  8
0
  0
POLYLINE
  8
0
 66
1
 10
0.0000
 20
0.0000
 30
0.0000
 40
0.0500
 41
0.0500
 70
0
  0
VERTEX
  8
0
 10
0.4250
 20
-0.2379
 30
0.0000
 42
1.0000
  0
VERTEX
  8
0
 10
0.4750
 20
-0.2379
 30
0.0000
  0
SEQEND
  8
0
  0
POLYLINE
  8
0
 66
1
 10
0.0000
 20
0.0000
 30
0.0000
 40
0.0500
 41
0.0500
 70
0
  0
VERTEX
  8
0
 10
0.4750
 20
0.2379
 30
0.0000
 42
1.0000
  0
VERTEX
  8
0
 10
0.4250
 20
0.2379
 30
0.0000
  0
SEQEND
  8
0
  0
POLYLINE
  8
0
 66
1
 10
0.0000
 20
0.0000
 30
0.0000
 40
0.1000
 41
0.1000
 70
0
  0
VERTEX
  8
0
 10
0.2379
 20
-0.4500
 30
0.0000
  0
VERTEX
  8
0
 10
-0.2379
 20
-0.4500
 30
0.0000
  0
SEQEND
  8
0
  0
POLYLINE
  8
0
 66
1
 10
0.0000
 20
0.0000
 30
0.0000
 40
0.0500
 41
0.0500
 70
0
  0
VERTEX
  8
0
 10
-0.2379
 20
-0.4250
 30
0.0000
 42
1.0000
  0
VERTEX
  8
0
 10
-0.2379
 20
-0.4750
 30
0.0000
  0
SEQEND
  8
0
  0
POLYLINE
  8
0
 66
1
 10
0.0000
 20
0.0000
 30
0.0000
 40
0.0500
 41
0.0500
 70
0
  0
VERTEX
  8
0
 10
0.2379
 20
-0.4750
 30
0.0000
 42
1.0000
  0
VERTEX
  8
0
 10
0.2379
 20
-0.4250
 30
0.0000
  0
SEQEND
  8
0
  0
POLYLINE
  8
0
 66
1
 10
0.0000
 20
0.0000
 30
0.0000
 40
0.1000
 41
0.1000
 70
0
  0
VERTEX
  8
0
 10
-0.4500
 20
-0.2379
 30
0.0000
  0
VERTEX
  8
0
 10
-0.4500
 20
0.2379
 30
0.0000
  0
SEQEND
  8
0
  0
POLYLINE
  8
0
 66
1
 10
0.0000
 20
0.0000
 30
0.0000
 40
0.0500
 41
0.0500
 70
0
  0
VERTEX
  8
0
 10
-0.4250
 20
0.2379
 30
0.0000
 42
1.0000
  0
VERTEX
  8
0
 10
-0.4750
 20
0.2379
 30
0.0000
  0
SEQEND
  8
0
  0
POLYLINE
  8
0
 66
1
 10
0.0000
 20
0.0000
 30
0.0000
 40
0.0500
 41
0.0500
 70
0
  0
VERTEX
  8
0
 10
-0.4750
 20
-0.2379
 30
0.0000
 42
1.0000
  0
VERTEX
  8
0
 10
-0.4250
 20
-0.2379
 30
0.0000
  0
SEQEND
  8
0
  0
ENDBLK
  8
0
  0
BLOCK
  8
0
  2
OCTAGONV
 70
64
 10
0.0000
 20
0.0000
 30
0.0000
  3
OCTAGONV
  0
POLYLINE
  8
0
 66
1
 10
0.0000
 20
0.0000
 30
0.0000
 40
0.5000
 41
0.5000
 70
0
  0
VERTEX
  8
0
 10
-0.2500
 20
-0.1036
 30
0.0000
  0
VERTEX
  8
0
 10
-0.2500
 20
0.1036
 30
0.0000
  0
VERTEX
  8
0
 10
-0.1036
 20
0.2500
 30
0.0000
  0
VERTEX
  8
0
 10
0.1036
 20
0.2500
 30
0.0000
  0
VERTEX
  8
0
 10
0.2500
 20
0.1036
 30
0.0000
  0
VERTEX
  8
0
 10
0.2500
 20
-0.1036
 30
0.0000
  0
VERTEX
  8
0
 10
0.1036
 20
-0.2500
 30
0.0000
  0
VERTEX
  8
0
 10
-0.1036
 20
-0.2500
 30
0.0000
  0
VERTEX
  8
0
 10
-0.2500
 20
-0.1036
 30
0.0000
  0
VERTEX
  8
0
 10
-0.2500
 20
0.1036
 30
0.0000
  0
SEQEND
  8
0
  0
ENDBLK
  8
0
  0
BLOCK
  8
0
  2
SQUAREV
 70
64
 10
0.0000
 20
0.0000
 30
0.0000
  3
SQUAREV
  0
SOLID
  8
0
 10
-0.5000
 20
-0.5000
 30
0.0000
 11
0.5000
 21
-0.5000
 31
0.0000
 12
-0.5000
 22
0.5000
 32
0.0000
 13
0.5000
 23
0.5000
 33
0.0000
  0
ENDBLK
  8
0
  0
BLOCK
  8
0
  2
ROUNDV
 70
64
 10
0.0000
 20
0.0000
 30
0.0000
  3
ROUNDV
  0
POLYLINE
  8
0
 66
1
 10
0.0000
 20
0.0000
 30
0.0000
 40
0.5000
 41
0.5000
 70
0
  0
VERTEX
  8
0
 10
0.0000
 20
-0.2500
 30
0.0000
 42
1.0000
  0
VERTEX
  8
0
 10
0.0000
 20
0.2500
 30
0.0000
 42
1.0000
  0
VERTEX
  8
0
 10
0.0000
 20
-0.2500
 30
0.0000
  0
SEQEND
  8
0
  0
ENDBLK
  8
0
  0
BLOCK
  8
0
  2
ANNULUSV
 70
64
 10
0.0000
 20
0.0000
 30
0.0000
  3
ANNULUSV
  0
POLYLINE
  8
0
 66
1
 10
0.0000
 20
0.0000
 30
0.0000
 40
0.5000
 41
0.5000
 70
0
  0
VERTEX
  8
0
 10
0.0000
 20
-0.2500
 30
0.0000
 42
1.0000
  0
VERTEX
  8
0
 10
0.0000
 20
0.2500
 30
0.0000
 42
1.0000
  0
VERTEX
  8
0
 10
0.0000
 20
-0.2500
 30
0.0000
  0
SEQEND
  8
0
  0
ENDBLK
  8
0
  0
BLOCK
  8
0
  2
THERMALV
 70
64
 10
0.0000
 20
0.0000
 30
0.0000
  3
THERMALV
  0
POLYLINE
  8
0
 66
1
 10
0.0000
 20
0.0000
 30
0.0000
 40
0.1000
 41
0.1000
 70
0
  0
VERTEX
  8
0
 10
-0.2379
 20
0.4500
 30
0.0000
  0
VERTEX
  8
0
 10
0.2379
 20
0.4500
 30
0.0000
  0
SEQEND
  8
0
  0
POLYLINE
  8
0
 66
1
 10
0.0000
 20
0.0000
 30
0.0000
 40
0.0500
 41
0.0500
 70
0
  0
VERTEX
  8
0
 10
0.2379
 20
0.4250
 30
0.0000
 42
1.0000
  0
VERTEX
  8
0
 10
0.2379
 20
0.4750
 30
0.0000
  0
SEQEND
  8
0
  0
POLYLINE
  8
0
 66
1
 10
0.0000
 20
0.0000
 30
0.0000
 40
0.0500
 41
0.0500
 70
0
  0
VERTEX
  8
0
 10
-0.2379
 20
0.4750
 30
0.0000
 42
1.0000
  0
VERTEX
  8
0
 10
-0.2379
 20
0.4250
 30
0.0000
  0
SEQEND
  8
0
  0
POLYLINE
  8
0
 66
1
 10
0.0000
 20
0.0000
 30
0.0000
 40
0.1000
 41
0.1000
 70
0
  0
VERTEX
  8
0
 10
0.4500
 20
0.2379
 30
0.0000
  0
VERTEX
  8
0
 10
0.4500
 20
-0.2379
 30
0.0000
  0
SEQEND
  8
0
  0
POLYLINE
  8
0
 66
1
 10
0.0000
 20
0.0000
 30
0.0000
 40
0.0500
 41
0.0500
 70
0
  0
VERTEX
  8
0
 10
0.4250
 20
-0.2379
 30
0.0000
 42
1.0000
  0
VERTEX
  8
0
 10
0.4750
 20
-0.2379
 30
0.0000
  0
SEQEND
  8
0
  0
POLYLINE
  8
0
 66
1
 10
0.0000
 20
0.0000
 30
0.0000
 40
0.0500
 41
0.0500
 70
0
  0
VERTEX
  8
0
 10
0.4750
 20
0.2379
 30
0.0000
 42
1.0000
  0
VERTEX
  8
0
 10
0.4250
 20
0.2379
 30
0.0000
  0
SEQEND
  8
0
  0
POLYLINE
  8
0
 66
1
 10
0.0000
 20
0.0000
 30
0.0000
 40
0.1000
 41
0.1000
 70
0
  0
VERTEX
  8
0
 10
0.2379
 20
-0.4500
 30
0.0000
  0
VERTEX
  8
0
 10
-0.2379
 20
-0.4500
 30
0.0000
  0
SEQEND
  8
0
  0
POLYLINE
  8
0
 66
1
 10
0.0000
 20
0.0000
 30
0.0000
 40
0.0500
 41
0.0500
 70
0
  0
VERTEX
  8
0
 10
-0.2379
 20
-0.4250
 30
0.0000
 42
1.0000
  0
VERTEX
  8
0
 10
-0.2379
 20
-0.4750
 30
0.0000
  0
SEQEND
  8
0
  0
POLYLINE
  8
0
 66
1
 10
0.0000
 20
0.0000
 30
0.0000
 40
0.0500
 41
0.0500
 70
0
  0
VERTEX
  8
0
 10
0.2379
 20
-0.4750
 30
0.0000
 42
1.0000
  0
VERTEX
  8
0
 10
0.2379
 20
-0.4250
 30
0.0000
  0
SEQEND
  8
0
  0
POLYLINE
  8
0
 66
1
 10
0.0000
 20
0.0000
 30
0.0000
 40
0.1000
 41
0.1000
 70
0
  0
VERTEX
  8
0
 10
-0.4500
 20
-0.2379
 30
0.0000
  0
VERTEX
  8
0
 10
-0.4500
 20
0.2379
 30
0.0000
  0
SEQEND
  8
0
  0
POLYLINE
  8
0
 66
1
 10
0.0000
 20
0.0000
 30
0.0000
 40
0.0500
 41
0.0500
 70
0
  0
VERTEX
  8
0
 10
-0.4250
 20
0.2379
 30
0.0000
 42
1.0000
  0
VERTEX
  8
0
 10
-0.4750
 20
0.2379
 30
0.0000
  0
SEQEND
  8
0
  0
POLYLINE
  8
0
 66
1
 10
0.0000
 20
0.0000
 30
0.0000
 40
0.0500
 41
0.0500
 70
0
  0
VERTEX
  8
0
 10
-0.4750
 20
-0.2379
 30
0.0000
 42
1.0000
  0
VERTEX
  8
0
 10
-0.4250
 20
-0.2379
 30
0.0000
  0
SEQEND
  8
0
  0
ENDBLK
  8
0
  0
ENDSEC
  0
SECTION
  2
ENTITIES
  0
LINE
  8
20
 10
-34.0000
 20
96.0000
 30
0.0000
 11
-34.0000
 21
-44.0000
 31
0.0000
  0
LINE
  8
20
 10
-30.0000
 20
-48.0000
 30
0.0000
 11
151.0000
 21
-48.0000
 31
0.0000
  0
LINE
  8
20
 10
155.0000
 20
-44.0000
 30
0.0000
 11
155.0000
 21
14.0000
 31
0.0000
  0
LINE
  8
20
 10
116.0000
 20
100.0000
 30
0.0000
 11
-30.0000
 21
100.0000
 31
0.0000
  0
LINE
  8
20
 10
120.0000
 20
96.0000
 30
0.0000
 11
120.0000
 21
76.0000
 31
0.0000
  0
LINE
  8
20
 10
120.0000
 20
76.0000
 30
0.0000
 11
126.0000
 21
70.0000
 31
0.0000
  0
LINE
  8
20
 10
126.0000
 20
70.0000
 30
0.0000
 11
126.0000
 21
50.0000
 31
0.0000
  0
LINE
  8
20
 10
140.0000
 20
20.0000
 30
0.0000
 11
149.0000
 21
20.0000
 31
0.0000
  0
LINE
  8
20
 10
155.0000
 20
14.0000
 30
0.0000
 11
149.0000
 21
20.0000
 31
0.0000
  0
LINE
  8
20
 10
126.0000
 20
50.0000
 30
0.0000
 11
134.0000
 21
42.0000
 31
0.0000
  0
LINE
  8
20
 10
134.0000
 20
42.0000
 30
0.0000
 11
134.0000
 21
26.0000
 31
0.0000
  0
LINE
  8
20
 10
134.0000
 20
26.0000
 30
0.0000
 11
140.0000
 21
20.0000
 31
0.0000
  0
LINE
  8
20
 10
151.0000
 20
-48.0000
 30
0.0000
 11
155.0000
 21
-44.0000
 31
0.0000
  0
LINE
  8
20
 10
120.0000
 20
96.0000
 30
0.0000
 11
116.0000
 21
100.0000
 31
0.0000
  0
LINE
  8
20
 10
-34.0000
 20
96.0000
 30
0.0000
 11
-30.0000
 21
100.0000
 31
0.0000
  0
LINE
  8
20
 10
-30.0000
 20
-48.0000
 30
0.0000
 11
-34.0000
 21
-44.0000
 31
0.0000
  0
CIRCLE
  8
20
 10
111.0000
 20
89.0000
 30
0.0000
 40
1.6000
  0
CIRCLE
  8
20
 10
-19.0000
 20
89.0000
 30
0.0000
 40
1.6000
  0
CIRCLE
  8
20
 10
-19.0000
 20
-35.0000
 30
0.0000
 40
1.6000
  0
CIRCLE
  8
20
 10
111.0000
 20
-35.0000
 30
0.0000
 40
1.6000
  0
POINT
  8
23
 10
0.0000
 20
68.0000
 30
0.0000
  0
LINE
  8
20
 10
-7.0000
 20
75.0000
 30
0.0000
 11
7.0000
 21
75.0000
 31
0.0000
  0
LINE
  8
20
 10
7.0000
 20
75.0000
 30
0.0000
 11
7.0000
 21
61.0000
 31
0.0000
  0
LINE
  8
20
 10
7.0000
 20
61.0000
 30
0.0000
 11
-7.0000
 21
61.0000
 31
0.0000
  0
LINE
  8
20
 10
-7.0000
 20
61.0000
 30
0.0000
 11
-7.0000
 21
75.0000
 31
0.0000
  0
POINT
  8
23
 10
16.0000
 20
68.0000
 30
0.0000
  0
LINE
  8
20
 10
9.0000
 20
75.0000
 30
0.0000
 11
23.0000
 21
75.0000
 31
0.0000
  0
LINE
  8
20
 10
23.0000
 20
75.0000
 30
0.0000
 11
23.0000
 21
61.0000
 31
0.0000
  0
LINE
  8
20
 10
23.0000
 20
61.0000
 30
0.0000
 11
9.0000
 21
61.0000
 31
0.0000
  0
LINE
  8
20
 10
9.0000
 20
61.0000
 30
0.0000
 11
9.0000
 21
75.0000
 31
0.0000
  0
POINT
  8
23
 10
32.0000
 20
72.0000
 30
0.0000
  0
LINE
  8
20
 10
25.0000
 20
79.0000
 30
0.0000
 11
39.0000
 21
79.0000
 31
0.0000
  0
LINE
  8
20
 10
39.0000
 20
79.0000
 30
0.0000
 11
39.0000
 21
65.0000
 31
0.0000
  0
LINE
  8
20
 10
39.0000
 20
65.0000
 30
0.0000
 11
25.0000
 21
65.0000
 31
0.0000
  0
LINE
  8
20
 10
25.0000
 20
65.0000
 30
0.0000
 11
25.0000
 21
79.0000
 31
0.0000
  0
POINT
  8
23
 10
48.0000
 20
80.0000
 30
0.0000
  0
LINE
  8
20
 10
41.0000
 20
87.0000
 30
0.0000
 11
55.0000
 21
87.0000
 31
0.0000
  0
LINE
  8
20
 10
55.0000
 20
87.0000
 30
0.0000
 11
55.0000
 21
73.0000
 31
0.0000
  0
LINE
  8
20
 10
55.0000
 20
73.0000
 30
0.0000
 11
41.0000
 21
73.0000
 31
0.0000
  0
LINE
  8
20
 10
41.0000
 20
73.0000
 30
0.0000
 11
41.0000
 21
87.0000
 31
0.0000
  0
POINT
  8
23
 10
64.0000
 20
84.0000
 30
0.0000
  0
LINE
  8
20
 10
57.0000
 20
91.0000
 30
0.0000
 11
71.0000
 21
91.0000
 31
0.0000
  0
LINE
  8
20
 10
71.0000
 20
91.0000
 30
0.0000
 11
71.0000
 21
77.0000
 31
0.0000
  0
LINE
  8
20
 10
71.0000
 20
77.0000
 30
0.0000
 11
57.0000
 21
77.0000
 31
0.0000
  0
LINE
  8
20
 10
57.0000
 20
77.0000
 30
0.0000
 11
57.0000
 21
91.0000
 31
0.0000
  0
POINT
  8
23
 10
80.0000
 20
80.0000
 30
0.0000
  0
LINE
  8
20
 10
73.0000
 20
87.0000
 30
0.0000
 11
87.0000
 21
87.0000
 31
0.0000
  0
LINE
  8
20
 10
87.0000
 20
87.0000
 30
0.0000
 11
87.0000
 21
73.0000
 31
0.0000
  0
LINE
  8
20
 10
87.0000
 20
73.0000
 30
0.0000
 11
73.0000
 21
73.0000
 31
0.0000
  0
LINE
  8
20
 10
73.0000
 20
73.0000
 30
0.0000
 11
73.0000
 21
87.0000
 31
0.0000
  0
POINT
  8
23
 10
96.0000
 20
80.0000
 30
0.0000
  0
LINE
  8
20
 10
89.0000
 20
87.0000
 30
0.0000
 11
103.0000
 21
87.0000
 31
0.0000
  0
LINE
  8
20
 10
103.0000
 20
87.0000
 30
0.0000
 11
103.0000
 21
73.0000
 31
0.0000
  0
LINE
  8
20
 10
103.0000
 20
73.0000
 30
0.0000
 11
89.0000
 21
73.0000
 31
0.0000
  0
LINE
  8
20
 10
89.0000
 20
73.0000
 30
0.0000
 11
89.0000
 21
87.0000
 31
0.0000
  0
POINT
  8
23
 10
128.9600
 20
-3.7700
 30
0.0000
  0
LINE
  8
20
 10
124.7763
 20
5.2020
 30
0.0000
 11
137.9320
 21
0.4137
 31
0.0000
  0
LINE
  8
20
 10
137.9320
 20
0.4137
 30
0.0000
 11
133.1437
 21
-12.7420
 31
0.0000
  0
LINE
  8
20
 10
133.1437
 20
-12.7420
 30
0.0000
 11
119.9880
 21
-7.9537
 31
0.0000
  0
LINE
  8
20
 10
119.9880
 20
-7.9537
 30
0.0000
 11
124.7763
 21
5.2020
 31
0.0000
  0
POINT
  8
23
 10
0.0000
 20
48.0000
 30
0.0000
  0
LINE
  8
20
 10
-7.0000
 20
55.0000
 30
0.0000
 11
7.0000
 21
55.0000
 31
0.0000
  0
LINE
  8
20
 10
7.0000
 20
55.0000
 30
0.0000
 11
7.0000
 21
41.0000
 31
0.0000
  0
LINE
  8
20
 10
7.0000
 20
41.0000
 30
0.0000
 11
-7.0000
 21
41.0000
 31
0.0000
  0
LINE
  8
20
 10
-7.0000
 20
41.0000
 30
0.0000
 11
-7.0000
 21
55.0000
 31
0.0000
  0
POINT
  8
23
 10
16.0000
 20
48.0000
 30
0.0000
  0
LINE
  8
20
 10
9.0000
 20
55.0000
 30
0.0000
 11
23.0000
 21
55.0000
 31
0.0000
  0
LINE
  8
20
 10
23.0000
 20
55.0000
 30
0.0000
 11
23.0000
 21
41.0000
 31
0.0000
  0
LINE
  8
20
 10
23.0000
 20
41.0000
 30
0.0000
 11
9.0000
 21
41.0000
 31
0.0000
  0
LINE
  8
20
 10
9.0000
 20
41.0000
 30
0.0000
 11
9.0000
 21
55.0000
 31
0.0000
  0
POINT
  8
23
 10
32.0000
 20
52.0000
 30
0.0000
  0
LINE
  8
20
 10
25.0000
 20
59.0000
 30
0.0000
 11
39.0000
 21
59.0000
 31
0.0000
  0
LINE
  8
20
 10
39.0000
 20
59.0000
 30
0.0000
 11
39.0000
 21
45.0000
 31
0.0000
  0
LINE
  8
20
 10
39.0000
 20
45.0000
 30
0.0000
 11
25.0000
 21
45.0000
 31
0.0000
  0
LINE
  8
20
 10
25.0000
 20
45.0000
 30
0.0000
 11
25.0000
 21
59.0000
 31
0.0000
  0
POINT
  8
23
 10
48.0000
 20
60.0000
 30
0.0000
  0
LINE
  8
20
 10
41.0000
 20
67.0000
 30
0.0000
 11
55.0000
 21
67.0000
 31
0.0000
  0
LINE
  8
20
 10
55.0000
 20
67.0000
 30
0.0000
 11
55.0000
 21
53.0000
 31
0.0000
  0
LINE
  8
20
 10
55.0000
 20
53.0000
 30
0.0000
 11
41.0000
 21
53.0000
 31
0.0000
  0
LINE
  8
20
 10
41.0000
 20
53.0000
 30
0.0000
 11
41.0000
 21
67.0000
 31
0.0000
  0
POINT
  8
23
 10
64.0000
 20
64.0000
 30
0.0000
  0
LINE
  8
20
 10
57.0000
 20
71.0000
 30
0.0000
 11
71.0000
 21
71.0000
 31
0.0000
  0
LINE
  8
20
 10
71.0000
 20
71.0000
 30
0.0000
 11
71.0000
 21
57.0000
 31
0.0000
  0
LINE
  8
20
 10
71.0000
 20
57.0000
 30
0.0000
 11
57.0000
 21
57.0000
 31
0.0000
  0
LINE
  8
20
 10
57.0000
 20
57.0000
 30
0.0000
 11
57.0000
 21
71.0000
 31
0.0000
  0
POINT
  8
23
 10
80.0000
 20
60.0000
 30
0.0000
  0
LINE
  8
20
 10
73.0000
 20
67.0000
 30
0.0000
 11
87.0000
 21
67.0000
 31
0.0000
  0
LINE
  8
20
 10
87.0000
 20
67.0000
 30
0.0000
 11
87.0000
 21
53.0000
 31
0.0000
  0
LINE
  8
20
 10
87.0000
 20
53.0000
 30
0.0000
 11
73.0000
 21
53.0000
 31
0.0000
  0
LINE
  8
20
 10
73.0000
 20
53.0000
 30
0.0000
 11
73.0000
 21
67.0000
 31
0.0000
  0
POINT
  8
23
 10
96.0000
 20
60.0000
 30
0.0000
  0
LINE
  8
20
 10
89.0000
 20
67.0000
 30
0.0000
 11
103.0000
 21
67.0000
 31
0.0000
  0
LINE
  8
20
 10
103.0000
 20
67.0000
 30
0.0000
 11
103.0000
 21
53.0000
 31
0.0000
  0
LINE
  8
20
 10
103.0000
 20
53.0000
 30
0.0000
 11
89.0000
 21
53.0000
 31
0.0000
  0
LINE
  8
20
 10
89.0000
 20
53.0000
 30
0.0000
 11
89.0000
 21
67.0000
 31
0.0000
  0
POINT
  8
23
 10
-16.0000
 20
0.0000
 30
0.0000
  0
LINE
  8
20
 10
-23.0000
 20
7.0000
 30
0.0000
 11
-9.0000
 21
7.0000
 31
0.0000
  0
LINE
  8
20
 10
-9.0000
 20
7.0000
 30
0.0000
 11
-9.0000
 21
-7.0000
 31
0.0000
  0
LINE
  8
20
 10
-9.0000
 20
-7.0000
 30
0.0000
 11
-23.0000
 21
-7.0000
 31
0.0000
  0
LINE
  8
20
 10
-23.0000
 20
-7.0000
 30
0.0000
 11
-23.0000
 21
7.0000
 31
0.0000
  0
POINT
  8
23
 10
0.0000
 20
32.0000
 30
0.0000
  0
LINE
  8
20
 10
-7.0000
 20
39.0000
 30
0.0000
 11
7.0000
 21
39.0000
 31
0.0000
  0
LINE
  8
20
 10
7.0000
 20
39.0000
 30
0.0000
 11
7.0000
 21
25.0000
 31
0.0000
  0
LINE
  8
20
 10
7.0000
 20
25.0000
 30
0.0000
 11
-7.0000
 21
25.0000
 31
0.0000
  0
LINE
  8
20
 10
-7.0000
 20
25.0000
 30
0.0000
 11
-7.0000
 21
39.0000
 31
0.0000
  0
POINT
  8
23
 10
16.0000
 20
32.0000
 30
0.0000
  0
LINE
  8
20
 10
9.0000
 20
39.0000
 30
0.0000
 11
23.0000
 21
39.0000
 31
0.0000
  0
LINE
  8
20
 10
23.0000
 20
39.0000
 30
0.0000
 11
23.0000
 21
25.0000
 31
0.0000
  0
LINE
  8
20
 10
23.0000
 20
25.0000
 30
0.0000
 11
9.0000
 21
25.0000
 31
0.0000
  0
LINE
  8
20
 10
9.0000
 20
25.0000
 30
0.0000
 11
9.0000
 21
39.0000
 31
0.0000
  0
POINT
  8
23
 10
32.0000
 20
36.0000
 30
0.0000
  0
LINE
  8
20
 10
25.0000
 20
43.0000
 30
0.0000
 11
39.0000
 21
43.0000
 31
0.0000
  0
LINE
  8
20
 10
39.0000
 20
43.0000
 30
0.0000
 11
39.0000
 21
29.0000
 31
0.0000
  0
LINE
  8
20
 10
39.0000
 20
29.0000
 30
0.0000
 11
25.0000
 21
29.0000
 31
0.0000
  0
LINE
  8
20
 10
25.0000
 20
29.0000
 30
0.0000
 11
25.0000
 21
43.0000
 31
0.0000
  0
POINT
  8
23
 10
48.0000
 20
44.0000
 30
0.0000
  0
LINE
  8
20
 10
41.0000
 20
51.0000
 30
0.0000
 11
55.0000
 21
51.0000
 31
0.0000
  0
LINE
  8
20
 10
55.0000
 20
51.0000
 30
0.0000
 11
55.0000
 21
37.0000
 31
0.0000
  0
LINE
  8
20
 10
55.0000
 20
37.0000
 30
0.0000
 11
41.0000
 21
37.0000
 31
0.0000
  0
LINE
  8
20
 10
41.0000
 20
37.0000
 30
0.0000
 11
41.0000
 21
51.0000
 31
0.0000
  0
POINT
  8
23
 10
64.0000
 20
48.0000
 30
0.0000
  0
LINE
  8
20
 10
57.0000
 20
55.0000
 30
0.0000
 11
71.0000
 21
55.0000
 31
0.0000
  0
LINE
  8
20
 10
71.0000
 20
55.0000
 30
0.0000
 11
71.0000
 21
41.0000
 31
0.0000
  0
LINE
  8
20
 10
71.0000
 20
41.0000
 30
0.0000
 11
57.0000
 21
41.0000
 31
0.0000
  0
LINE
  8
20
 10
57.0000
 20
41.0000
 30
0.0000
 11
57.0000
 21
55.0000
 31
0.0000
  0
POINT
  8
23
 10
80.0000
 20
44.0000
 30
0.0000
  0
LINE
  8
20
 10
73.0000
 20
51.0000
 30
0.0000
 11
87.0000
 21
51.0000
 31
0.0000
  0
LINE
  8
20
 10
87.0000
 20
51.0000
 30
0.0000
 11
87.0000
 21
37.0000
 31
0.0000
  0
LINE
  8
20
 10
87.0000
 20
37.0000
 30
0.0000
 11
73.0000
 21
37.0000
 31
0.0000
  0
LINE
  8
20
 10
73.0000
 20
37.0000
 30
0.0000
 11
73.0000
 21
51.0000
 31
0.0000
  0
POINT
  8
23
 10
96.0000
 20
44.0000
 30
0.0000
  0
LINE
  8
20
 10
89.0000
 20
51.0000
 30
0.0000
 11
103.0000
 21
51.0000
 31
0.0000
  0
LINE
  8
20
 10
103.0000
 20
51.0000
 30
0.0000
 11
103.0000
 21
37.0000
 31
0.0000
  0
LINE
  8
20
 10
103.0000
 20
37.0000
 30
0.0000
 11
89.0000
 21
37.0000
 31
0.0000
  0
LINE
  8
20
 10
89.0000
 20
37.0000
 30
0.0000
 11
89.0000
 21
51.0000
 31
0.0000
  0
POINT
  8
23
 10
-16.0000
 20
-20.0000
 30
0.0000
  0
LINE
  8
20
 10
-23.0000
 20
-13.0000
 30
0.0000
 11
-9.0000
 21
-13.0000
 31
0.0000
  0
LINE
  8
20
 10
-9.0000
 20
-13.0000
 30
0.0000
 11
-9.0000
 21
-27.0000
 31
0.0000
  0
LINE
  8
20
 10
-9.0000
 20
-27.0000
 30
0.0000
 11
-23.0000
 21
-27.0000
 31
0.0000
  0
LINE
  8
20
 10
-23.0000
 20
-27.0000
 30
0.0000
 11
-23.0000
 21
-13.0000
 31
0.0000
  0
POINT
  8
23
 10
0.0000
 20
16.0000
 30
0.0000
  0
LINE
  8
20
 10
-7.0000
 20
23.0000
 30
0.0000
 11
7.0000
 21
23.0000
 31
0.0000
  0
LINE
  8
20
 10
7.0000
 20
23.0000
 30
0.0000
 11
7.0000
 21
9.0000
 31
0.0000
  0
LINE
  8
20
 10
7.0000
 20
9.0000
 30
0.0000
 11
-7.0000
 21
9.0000
 31
0.0000
  0
LINE
  8
20
 10
-7.0000
 20
9.0000
 30
0.0000
 11
-7.0000
 21
23.0000
 31
0.0000
  0
POINT
  8
23
 10
16.0000
 20
16.0000
 30
0.0000
  0
LINE
  8
20
 10
9.0000
 20
23.0000
 30
0.0000
 11
23.0000
 21
23.0000
 31
0.0000
  0
LINE
  8
20
 10
23.0000
 20
23.0000
 30
0.0000
 11
23.0000
 21
9.0000
 31
0.0000
  0
LINE
  8
20
 10
23.0000
 20
9.0000
 30
0.0000
 11
9.0000
 21
9.0000
 31
0.0000
  0
LINE
  8
20
 10
9.0000
 20
9.0000
 30
0.0000
 11
9.0000
 21
23.0000
 31
0.0000
  0
POINT
  8
23
 10
32.0000
 20
20.0000
 30
0.0000
  0
LINE
  8
20
 10
25.0000
 20
27.0000
 30
0.0000
 11
39.0000
 21
27.0000
 31
0.0000
  0
LINE
  8
20
 10
39.0000
 20
27.0000
 30
0.0000
 11
39.0000
 21
13.0000
 31
0.0000
  0
LINE
  8
20
 10
39.0000
 20
13.0000
 30
0.0000
 11
25.0000
 21
13.0000
 31
0.0000
  0
LINE
  8
20
 10
25.0000
 20
13.0000
 30
0.0000
 11
25.0000
 21
27.0000
 31
0.0000
  0
POINT
  8
23
 10
48.0000
 20
28.0000
 30
0.0000
  0
LINE
  8
20
 10
41.0000
 20
35.0000
 30
0.0000
 11
55.0000
 21
35.0000
 31
0.0000
  0
LINE
  8
20
 10
55.0000
 20
35.0000
 30
0.0000
 11
55.0000
 21
21.0000
 31
0.0000
  0
LINE
  8
20
 10
55.0000
 20
21.0000
 30
0.0000
 11
41.0000
 21
21.0000
 31
0.0000
  0
LINE
  8
20
 10
41.0000
 20
21.0000
 30
0.0000
 11
41.0000
 21
35.0000
 31
0.0000
  0
POINT
  8
23
 10
64.0000
 20
32.0000
 30
0.0000
  0
LINE
  8
20
 10
57.0000
 20
39.0000
 30
0.0000
 11
71.0000
 21
39.0000
 31
0.0000
  0
LINE
  8
20
 10
71.0000
 20
39.0000
 30
0.0000
 11
71.0000
 21
25.0000
 31
0.0000
  0
LINE
  8
20
 10
71.0000
 20
25.0000
 30
0.0000
 11
57.0000
 21
25.0000
 31
0.0000
  0
LINE
  8
20
 10
57.0000
 20
25.0000
 30
0.0000
 11
57.0000
 21
39.0000
 31
0.0000
  0
POINT
  8
23
 10
80.0000
 20
28.0000
 30
0.0000
  0
LINE
  8
20
 10
73.0000
 20
35.0000
 30
0.0000
 11
87.0000
 21
35.0000
 31
0.0000
  0
LINE
  8
20
 10
87.0000
 20
35.0000
 30
0.0000
 11
87.0000
 21
21.0000
 31
0.0000
  0
LINE
  8
20
 10
87.0000
 20
21.0000
 30
0.0000
 11
73.0000
 21
21.0000
 31
0.0000
  0
LINE
  8
20
 10
73.0000
 20
21.0000
 30
0.0000
 11
73.0000
 21
35.0000
 31
0.0000
  0
POINT
  8
23
 10
96.0000
 20
28.0000
 30
0.0000
  0
LINE
  8
20
 10
89.0000
 20
35.0000
 30
0.0000
 11
103.0000
 21
35.0000
 31
0.0000
  0
LINE
  8
20
 10
103.0000
 20
35.0000
 30
0.0000
 11
103.0000
 21
21.0000
 31
0.0000
  0
LINE
  8
20
 10
103.0000
 20
21.0000
 30
0.0000
 11
89.0000
 21
21.0000
 31
0.0000
  0
LINE
  8
20
 10
89.0000
 20
21.0000
 30
0.0000
 11
89.0000
 21
35.0000
 31
0.0000
  0
POINT
  8
23
 10
112.0000
 20
24.0000
 30
0.0000
  0
LINE
  8
20
 10
105.0000
 20
31.0000
 30
0.0000
 11
119.0000
 21
31.0000
 31
0.0000
  0
LINE
  8
20
 10
119.0000
 20
31.0000
 30
0.0000
 11
119.0000
 21
17.0000
 31
0.0000
  0
LINE
  8
20
 10
119.0000
 20
17.0000
 30
0.0000
 11
105.0000
 21
17.0000
 31
0.0000
  0
LINE
  8
20
 10
105.0000
 20
17.0000
 30
0.0000
 11
105.0000
 21
31.0000
 31
0.0000
  0
POINT
  8
23
 10
0.0000
 20
-4.0000
 30
0.0000
  0
LINE
  8
20
 10
-7.0000
 20
3.0000
 30
0.0000
 11
7.0000
 21
3.0000
 31
0.0000
  0
LINE
  8
20
 10
7.0000
 20
3.0000
 30
0.0000
 11
7.0000
 21
-11.0000
 31
0.0000
  0
LINE
  8
20
 10
7.0000
 20
-11.0000
 30
0.0000
 11
-7.0000
 21
-11.0000
 31
0.0000
  0
LINE
  8
20
 10
-7.0000
 20
-11.0000
 30
0.0000
 11
-7.0000
 21
3.0000
 31
0.0000
  0
POINT
  8
23
 10
16.0000
 20
0.0000
 30
0.0000
  0
LINE
  8
20
 10
9.0000
 20
7.0000
 30
0.0000
 11
23.0000
 21
7.0000
 31
0.0000
  0
LINE
  8
20
 10
23.0000
 20
7.0000
 30
0.0000
 11
23.0000
 21
-7.0000
 31
0.0000
  0
LINE
  8
20
 10
23.0000
 20
-7.0000
 30
0.0000
 11
9.0000
 21
-7.0000
 31
0.0000
  0
LINE
  8
20
 10
9.0000
 20
-7.0000
 30
0.0000
 11
9.0000
 21
7.0000
 31
0.0000
  0
POINT
  8
23
 10
32.0000
 20
4.0000
 30
0.0000
  0
LINE
  8
20
 10
25.0000
 20
11.0000
 30
0.0000
 11
39.0000
 21
11.0000
 31
0.0000
  0
LINE
  8
20
 10
39.0000
 20
11.0000
 30
0.0000
 11
39.0000
 21
-3.0000
 31
0.0000
  0
LINE
  8
20
 10
39.0000
 20
-3.0000
 30
0.0000
 11
25.0000
 21
-3.0000
 31
0.0000
  0
LINE
  8
20
 10
25.0000
 20
-3.0000
 30
0.0000
 11
25.0000
 21
11.0000
 31
0.0000
  0
POINT
  8
23
 10
48.0000
 20
12.0000
 30
0.0000
  0
LINE
  8
20
 10
41.0000
 20
19.0000
 30
0.0000
 11
55.0000
 21
19.0000
 31
0.0000
  0
LINE
  8
20
 10
55.0000
 20
19.0000
 30
0.0000
 11
55.0000
 21
5.0000
 31
0.0000
  0
LINE
  8
20
 10
55.0000
 20
5.0000
 30
0.0000
 11
41.0000
 21
5.0000
 31
0.0000
  0
LINE
  8
20
 10
41.0000
 20
5.0000
 30
0.0000
 11
41.0000
 21
19.0000
 31
0.0000
  0
POINT
  8
23
 10
64.0000
 20
16.0000
 30
0.0000
  0
LINE
  8
20
 10
57.0000
 20
23.0000
 30
0.0000
 11
71.0000
 21
23.0000
 31
0.0000
  0
LINE
  8
20
 10
71.0000
 20
23.0000
 30
0.0000
 11
71.0000
 21
9.0000
 31
0.0000
  0
LINE
  8
20
 10
71.0000
 20
9.0000
 30
0.0000
 11
57.0000
 21
9.0000
 31
0.0000
  0
LINE
  8
20
 10
57.0000
 20
9.0000
 30
0.0000
 11
57.0000
 21
23.0000
 31
0.0000
  0
POINT
  8
23
 10
80.0000
 20
12.0000
 30
0.0000
  0
LINE
  8
20
 10
73.0000
 20
19.0000
 30
0.0000
 11
87.0000
 21
19.0000
 31
0.0000
  0
LINE
  8
20
 10
87.0000
 20
19.0000
 30
0.0000
 11
87.0000
 21
5.0000
 31
0.0000
  0
LINE
  8
20
 10
87.0000
 20
5.0000
 30
0.0000
 11
73.0000
 21
5.0000
 31
0.0000
  0
LINE
  8
20
 10
73.0000
 20
5.0000
 30
0.0000
 11
73.0000
 21
19.0000
 31
0.0000
  0
POINT
  8
23
 10
96.0000
 20
12.0000
 30
0.0000
  0
LINE
  8
20
 10
89.0000
 20
19.0000
 30
0.0000
 11
103.0000
 21
19.0000
 31
0.0000
  0
LINE
  8
20
 10
103.0000
 20
19.0000
 30
0.0000
 11
103.0000
 21
5.0000
 31
0.0000
  0
LINE
  8
20
 10
103.0000
 20
5.0000
 30
0.0000
 11
89.0000
 21
5.0000
 31
0.0000
  0
LINE
  8
20
 10
89.0000
 20
5.0000
 30
0.0000
 11
89.0000
 21
19.0000
 31
0.0000
  0
POINT
  8
23
 10
112.0000
 20
8.0000
 30
0.0000
  0
LINE
  8
20
 10
105.0000
 20
15.0000
 30
0.0000
 11
119.0000
 21
15.0000
 31
0.0000
  0
LINE
  8
20
 10
119.0000
 20
15.0000
 30
0.0000
 11
119.0000
 21
1.0000
 31
0.0000
  0
LINE
  8
20
 10
119.0000
 20
1.0000
 30
0.0000
 11
105.0000
 21
1.0000
 31
0.0000
  0
LINE
  8
20
 10
105.0000
 20
1.0000
 30
0.0000
 11
105.0000
 21
15.0000
 31
0.0000
  0
POINT
  8
23
 10
0.0000
 20
-20.0000
 30
0.0000
  0
LINE
  8
20
 10
-7.0000
 20
-13.0000
 30
0.0000
 11
7.0000
 21
-13.0000
 31
0.0000
  0
LINE
  8
20
 10
7.0000
 20
-13.0000
 30
0.0000
 11
7.0000
 21
-27.0000
 31
0.0000
  0
LINE
  8
20
 10
7.0000
 20
-27.0000
 30
0.0000
 11
-7.0000
 21
-27.0000
 31
0.0000
  0
LINE
  8
20
 10
-7.0000
 20
-27.0000
 30
0.0000
 11
-7.0000
 21
-13.0000
 31
0.0000
  0
POINT
  8
23
 10
16.0000
 20
-20.0000
 30
0.0000
  0
LINE
  8
20
 10
9.0000
 20
-13.0000
 30
0.0000
 11
23.0000
 21
-13.0000
 31
0.0000
  0
LINE
  8
20
 10
23.0000
 20
-13.0000
 30
0.0000
 11
23.0000
 21
-27.0000
 31
0.0000
  0
LINE
  8
20
 10
23.0000
 20
-27.0000
 30
0.0000
 11
9.0000
 21
-27.0000
 31
0.0000
  0
LINE
  8
20
 10
9.0000
 20
-27.0000
 30
0.0000
 11
9.0000
 21
-13.0000
 31
0.0000
  0
POINT
  8
23
 10
39.6250
 20
-20.0000
 30
0.0000
  0
LINE
  8
20
 10
32.6250
 20
-13.0000
 30
0.0000
 11
46.6250
 21
-13.0000
 31
0.0000
  0
LINE
  8
20
 10
46.6250
 20
-13.0000
 30
0.0000
 11
46.6250
 21
-27.0000
 31
0.0000
  0
LINE
  8
20
 10
46.6250
 20
-27.0000
 30
0.0000
 11
32.6250
 21
-27.0000
 31
0.0000
  0
LINE
  8
20
 10
32.6250
 20
-27.0000
 30
0.0000
 11
32.6250
 21
-13.0000
 31
0.0000
  0
POINT
  8
23
 10
61.0000
 20
-16.0000
 30
0.0000
  0
LINE
  8
20
 10
54.0000
 20
-9.0000
 30
0.0000
 11
68.0000
 21
-9.0000
 31
0.0000
  0
LINE
  8
20
 10
68.0000
 20
-9.0000
 30
0.0000
 11
68.0000
 21
-23.0000
 31
0.0000
  0
LINE
  8
20
 10
68.0000
 20
-23.0000
 30
0.0000
 11
54.0000
 21
-23.0000
 31
0.0000
  0
LINE
  8
20
 10
54.0000
 20
-23.0000
 30
0.0000
 11
54.0000
 21
-9.0000
 31
0.0000
  0
POINT
  8
23
 10
80.0000
 20
-10.0000
 30
0.0000
  0
LINE
  8
20
 10
73.0000
 20
-3.0000
 30
0.0000
 11
87.0000
 21
-3.0000
 31
0.0000
  0
LINE
  8
20
 10
87.0000
 20
-3.0000
 30
0.0000
 11
87.0000
 21
-17.0000
 31
0.0000
  0
LINE
  8
20
 10
87.0000
 20
-17.0000
 30
0.0000
 11
73.0000
 21
-17.0000
 31
0.0000
  0
LINE
  8
20
 10
73.0000
 20
-17.0000
 30
0.0000
 11
73.0000
 21
-3.0000
 31
0.0000
  0
POINT
  8
23
 10
99.0000
 20
-10.0000
 30
0.0000
  0
LINE
  8
20
 10
92.0000
 20
-3.0000
 30
0.0000
 11
106.0000
 21
-3.0000
 31
0.0000
  0
LINE
  8
20
 10
106.0000
 20
-3.0000
 30
0.0000
 11
106.0000
 21
-17.0000
 31
0.0000
  0
LINE
  8
20
 10
106.0000
 20
-17.0000
 30
0.0000
 11
92.0000
 21
-17.0000
 31
0.0000
  0
LINE
  8
20
 10
92.0000
 20
-17.0000
 30
0.0000
 11
92.0000
 21
-3.0000
 31
0.0000
  0
POINT
  8
23
 10
118.0000
 20
-20.0000
 30
0.0000
  0
LINE
  8
20
 10
113.8163
 20
-11.0280
 30
0.0000
 11
126.9720
 21
-15.8163
 31
0.0000
  0
LINE
  8
20
 10
126.9720
 20
-15.8163
 30
0.0000
 11
122.1837
 21
-28.9720
 31
0.0000
  0
LINE
  8
20
 10
122.1837
 20
-28.9720
 30
0.0000
 11
109.0280
 21
-24.1837
 31
0.0000
  0
LINE
  8
20
 10
109.0280
 20
-24.1837
 30
0.0000
 11
113.8163
 21
-11.0280
 31
0.0000
  0
POINT
  8
23
 10
135.8500
 20
-26.5000
 30
0.0000
  0
LINE
  8
20
 10
131.6663
 20
-17.5280
 30
0.0000
 11
144.8220
 21
-22.3163
 31
0.0000
  0
LINE
  8
20
 10
144.8220
 20
-22.3163
 30
0.0000
 11
140.0337
 21
-35.4720
 31
0.0000
  0
LINE
  8
20
 10
140.0337
 20
-35.4720
 30
0.0000
 11
126.8780
 21
-30.6837
 31
0.0000
  0
LINE
  8
20
 10
126.8780
 20
-30.6837
 30
0.0000
 11
131.6663
 21
-17.5280
 31
0.0000
  0
POINT
  8
23
 10
112.0000
 20
56.0000
 30
0.0000
  0
LINE
  8
20
 10
105.0000
 20
63.0000
 30
0.0000
 11
119.0000
 21
63.0000
 31
0.0000
  0
LINE
  8
20
 10
119.0000
 20
63.0000
 30
0.0000
 11
119.0000
 21
49.0000
 31
0.0000
  0
LINE
  8
20
 10
119.0000
 20
49.0000
 30
0.0000
 11
105.0000
 21
49.0000
 31
0.0000
  0
LINE
  8
20
 10
105.0000
 20
49.0000
 30
0.0000
 11
105.0000
 21
63.0000
 31
0.0000
  0
POINT
  8
23
 10
112.0000
 20
40.0000
 30
0.0000
  0
LINE
  8
20
 10
105.0000
 20
47.0000
 30
0.0000
 11
119.0000
 21
47.0000
 31
0.0000
  0
LINE
  8
20
 10
119.0000
 20
47.0000
 30
0.0000
 11
119.0000
 21
33.0000
 31
0.0000
  0
LINE
  8
20
 10
119.0000
 20
33.0000
 30
0.0000
 11
105.0000
 21
33.0000
 31
0.0000
  0
LINE
  8
20
 10
105.0000
 20
33.0000
 30
0.0000
 11
105.0000
 21
47.0000
 31
0.0000
  0
ENDSEC
  0
EOF
